ISO-10303-21;
HEADER;
/* Generated by software containing ST-Developer
 * from STEP Tools, Inc. (www.steptools.com) 
 */

FILE_DESCRIPTION(
/* description */ (''),
/* implementation_level */ '2;1');

FILE_NAME(
/* name */ 
'C:/Temp/Angle Setting Vise Jaw/Angle Setting Vise Jaws - Steel 6_ v21.
step',
/* time_stamp */ '2019-01-30T02:19:39-06:00',
/* author */ ('gwcude'),
/* organization */ (''),
/* preprocessor_version */ 'ST-DEVELOPER v17.2',
/* originating_system */ 'Autodesk Translation Framework v7.6.0.251',
/* authorisation */ '');

FILE_SCHEMA (('AUTOMOTIVE_DESIGN { 1 0 10303 214 3 1 1 }'));
ENDSEC;

DATA;
#10=MECHANICAL_DESIGN_GEOMETRIC_PRESENTATION_REPRESENTATION('',(#13),#391);
#11=SHAPE_REPRESENTATION_RELATIONSHIP('SRR','None',#401,#12);
#12=ADVANCED_BREP_SHAPE_REPRESENTATION('',(#14),#390);
#13=STYLED_ITEM('',(#410),#14);
#14=MANIFOLD_SOLID_BREP('Body1',#223);
#15=LINE('',#340,#31);
#16=LINE('',#343,#32);
#17=LINE('',#348,#33);
#18=LINE('',#350,#34);
#19=LINE('',#352,#35);
#20=LINE('',#353,#36);
#21=LINE('',#358,#37);
#22=LINE('',#360,#38);
#23=LINE('',#361,#39);
#24=LINE('',#364,#40);
#25=LINE('',#366,#41);
#26=LINE('',#367,#42);
#27=LINE('',#373,#43);
#28=LINE('',#374,#44);
#29=LINE('',#385,#45);
#30=LINE('',#387,#46);
#31=VECTOR('',#277,0.40625);
#32=VECTOR('',#280,0.276);
#33=VECTOR('',#285,0.393700787401575);
#34=VECTOR('',#286,0.393700787401575);
#35=VECTOR('',#287,0.393700787401575);
#36=VECTOR('',#288,0.393700787401575);
#37=VECTOR('',#293,0.393700787401575);
#38=VECTOR('',#294,0.393700787401575);
#39=VECTOR('',#295,0.393700787401575);
#40=VECTOR('',#298,0.393700787401575);
#41=VECTOR('',#299,0.393700787401575);
#42=VECTOR('',#300,0.393700787401575);
#43=VECTOR('',#307,0.393700787401575);
#44=VECTOR('',#308,0.393700787401575);
#45=VECTOR('',#323,0.40625);
#46=VECTOR('',#326,0.276);
#47=CYLINDRICAL_SURFACE('',#241,0.40625);
#48=CYLINDRICAL_SURFACE('',#244,0.276);
#49=CYLINDRICAL_SURFACE('',#259,0.40625);
#50=CYLINDRICAL_SURFACE('',#260,0.276);
#51=FACE_BOUND('',#70,.T.);
#52=FACE_BOUND('',#74,.T.);
#53=FACE_BOUND('',#75,.T.);
#54=FACE_BOUND('',#78,.T.);
#55=FACE_BOUND('',#79,.T.);
#56=FACE_BOUND('',#84,.T.);
#57=FACE_OUTER_BOUND('',#69,.T.);
#58=FACE_OUTER_BOUND('',#71,.T.);
#59=FACE_OUTER_BOUND('',#72,.T.);
#60=FACE_OUTER_BOUND('',#73,.T.);
#61=FACE_OUTER_BOUND('',#76,.T.);
#62=FACE_OUTER_BOUND('',#77,.T.);
#63=FACE_OUTER_BOUND('',#80,.T.);
#64=FACE_OUTER_BOUND('',#81,.T.);
#65=FACE_OUTER_BOUND('',#82,.T.);
#66=FACE_OUTER_BOUND('',#83,.T.);
#67=FACE_OUTER_BOUND('',#85,.T.);
#68=FACE_OUTER_BOUND('',#86,.T.);
#69=EDGE_LOOP('',(#147,#148));
#70=EDGE_LOOP('',(#149));
#71=EDGE_LOOP('',(#150,#151,#152,#153,#154,#155));
#72=EDGE_LOOP('',(#156,#157,#158,#159));
#73=EDGE_LOOP('',(#160,#161,#162,#163));
#74=EDGE_LOOP('',(#164));
#75=EDGE_LOOP('',(#165));
#76=EDGE_LOOP('',(#166,#167,#168,#169));
#77=EDGE_LOOP('',(#170,#171,#172,#173));
#78=EDGE_LOOP('',(#174,#175));
#79=EDGE_LOOP('',(#176,#177));
#80=EDGE_LOOP('',(#178,#179,#180,#181));
#81=EDGE_LOOP('',(#182,#183,#184,#185));
#82=EDGE_LOOP('',(#186,#187,#188,#189));
#83=EDGE_LOOP('',(#190,#191));
#84=EDGE_LOOP('',(#192));
#85=EDGE_LOOP('',(#193,#194,#195,#196,#197,#198));
#86=EDGE_LOOP('',(#199,#200,#201,#202));
#87=CIRCLE('',#238,0.40625);
#88=CIRCLE('',#239,0.40625);
#89=CIRCLE('',#240,0.276);
#90=CIRCLE('',#242,0.40625);
#91=CIRCLE('',#243,0.40625);
#92=CIRCLE('',#245,0.276);
#93=CIRCLE('',#247,0.276);
#94=CIRCLE('',#250,0.40625);
#95=CIRCLE('',#251,0.40625);
#96=CIRCLE('',#256,0.40625);
#97=CIRCLE('',#257,0.40625);
#98=CIRCLE('',#258,0.276);
#99=VERTEX_POINT('',#329);
#100=VERTEX_POINT('',#330);
#101=VERTEX_POINT('',#333);
#102=VERTEX_POINT('',#336);
#103=VERTEX_POINT('',#337);
#104=VERTEX_POINT('',#342);
#105=VERTEX_POINT('',#346);
#106=VERTEX_POINT('',#347);
#107=VERTEX_POINT('',#349);
#108=VERTEX_POINT('',#351);
#109=VERTEX_POINT('',#354);
#110=VERTEX_POINT('',#357);
#111=VERTEX_POINT('',#359);
#112=VERTEX_POINT('',#363);
#113=VERTEX_POINT('',#365);
#114=VERTEX_POINT('',#368);
#115=VERTEX_POINT('',#369);
#116=VERTEX_POINT('',#378);
#117=VERTEX_POINT('',#379);
#118=VERTEX_POINT('',#382);
#119=EDGE_CURVE('',#99,#100,#87,.T.);
#120=EDGE_CURVE('',#100,#99,#88,.T.);
#121=EDGE_CURVE('',#101,#101,#89,.T.);
#122=EDGE_CURVE('',#102,#103,#90,.T.);
#123=EDGE_CURVE('',#103,#102,#91,.T.);
#124=EDGE_CURVE('',#103,#100,#15,.T.);
#125=EDGE_CURVE('',#101,#104,#16,.T.);
#126=EDGE_CURVE('',#104,#104,#92,.T.);
#127=EDGE_CURVE('',#105,#106,#17,.T.);
#128=EDGE_CURVE('',#106,#107,#18,.T.);
#129=EDGE_CURVE('',#108,#107,#19,.T.);
#130=EDGE_CURVE('',#105,#108,#20,.T.);
#131=EDGE_CURVE('',#109,#109,#93,.T.);
#132=EDGE_CURVE('',#110,#105,#21,.T.);
#133=EDGE_CURVE('',#111,#108,#22,.T.);
#134=EDGE_CURVE('',#110,#111,#23,.T.);
#135=EDGE_CURVE('',#112,#110,#24,.T.);
#136=EDGE_CURVE('',#113,#111,#25,.T.);
#137=EDGE_CURVE('',#112,#113,#26,.T.);
#138=EDGE_CURVE('',#114,#115,#94,.T.);
#139=EDGE_CURVE('',#115,#114,#95,.T.);
#140=EDGE_CURVE('',#106,#112,#27,.T.);
#141=EDGE_CURVE('',#107,#113,#28,.T.);
#142=EDGE_CURVE('',#116,#117,#96,.T.);
#143=EDGE_CURVE('',#117,#116,#97,.T.);
#144=EDGE_CURVE('',#118,#118,#98,.T.);
#145=EDGE_CURVE('',#115,#117,#29,.T.);
#146=EDGE_CURVE('',#118,#109,#30,.T.);
#147=ORIENTED_EDGE('',*,*,#119,.F.);
#148=ORIENTED_EDGE('',*,*,#120,.F.);
#149=ORIENTED_EDGE('',*,*,#121,.T.);
#150=ORIENTED_EDGE('',*,*,#122,.F.);
#151=ORIENTED_EDGE('',*,*,#123,.F.);
#152=ORIENTED_EDGE('',*,*,#124,.T.);
#153=ORIENTED_EDGE('',*,*,#120,.T.);
#154=ORIENTED_EDGE('',*,*,#119,.T.);
#155=ORIENTED_EDGE('',*,*,#124,.F.);
#156=ORIENTED_EDGE('',*,*,#121,.F.);
#157=ORIENTED_EDGE('',*,*,#125,.T.);
#158=ORIENTED_EDGE('',*,*,#126,.F.);
#159=ORIENTED_EDGE('',*,*,#125,.F.);
#160=ORIENTED_EDGE('',*,*,#127,.T.);
#161=ORIENTED_EDGE('',*,*,#128,.T.);
#162=ORIENTED_EDGE('',*,*,#129,.F.);
#163=ORIENTED_EDGE('',*,*,#130,.F.);
#164=ORIENTED_EDGE('',*,*,#131,.F.);
#165=ORIENTED_EDGE('',*,*,#126,.T.);
#166=ORIENTED_EDGE('',*,*,#132,.T.);
#167=ORIENTED_EDGE('',*,*,#130,.T.);
#168=ORIENTED_EDGE('',*,*,#133,.F.);
#169=ORIENTED_EDGE('',*,*,#134,.F.);
#170=ORIENTED_EDGE('',*,*,#135,.T.);
#171=ORIENTED_EDGE('',*,*,#134,.T.);
#172=ORIENTED_EDGE('',*,*,#136,.F.);
#173=ORIENTED_EDGE('',*,*,#137,.F.);
#174=ORIENTED_EDGE('',*,*,#138,.F.);
#175=ORIENTED_EDGE('',*,*,#139,.F.);
#176=ORIENTED_EDGE('',*,*,#122,.T.);
#177=ORIENTED_EDGE('',*,*,#123,.T.);
#178=ORIENTED_EDGE('',*,*,#140,.T.);
#179=ORIENTED_EDGE('',*,*,#137,.T.);
#180=ORIENTED_EDGE('',*,*,#141,.F.);
#181=ORIENTED_EDGE('',*,*,#128,.F.);
#182=ORIENTED_EDGE('',*,*,#141,.T.);
#183=ORIENTED_EDGE('',*,*,#136,.T.);
#184=ORIENTED_EDGE('',*,*,#133,.T.);
#185=ORIENTED_EDGE('',*,*,#129,.T.);
#186=ORIENTED_EDGE('',*,*,#140,.F.);
#187=ORIENTED_EDGE('',*,*,#127,.F.);
#188=ORIENTED_EDGE('',*,*,#132,.F.);
#189=ORIENTED_EDGE('',*,*,#135,.F.);
#190=ORIENTED_EDGE('',*,*,#142,.T.);
#191=ORIENTED_EDGE('',*,*,#143,.T.);
#192=ORIENTED_EDGE('',*,*,#144,.F.);
#193=ORIENTED_EDGE('',*,*,#138,.T.);
#194=ORIENTED_EDGE('',*,*,#145,.T.);
#195=ORIENTED_EDGE('',*,*,#142,.F.);
#196=ORIENTED_EDGE('',*,*,#143,.F.);
#197=ORIENTED_EDGE('',*,*,#145,.F.);
#198=ORIENTED_EDGE('',*,*,#139,.T.);
#199=ORIENTED_EDGE('',*,*,#144,.T.);
#200=ORIENTED_EDGE('',*,*,#146,.T.);
#201=ORIENTED_EDGE('',*,*,#131,.T.);
#202=ORIENTED_EDGE('',*,*,#146,.F.);
#203=PLANE('',#237);
#204=PLANE('',#246);
#205=PLANE('',#248);
#206=PLANE('',#249);
#207=PLANE('',#252);
#208=PLANE('',#253);
#209=PLANE('',#254);
#210=PLANE('',#255);
#211=ADVANCED_FACE('',(#57,#51),#203,.F.);
#212=ADVANCED_FACE('',(#58),#47,.F.);
#213=ADVANCED_FACE('',(#59),#48,.F.);
#214=ADVANCED_FACE('',(#60,#52,#53),#204,.T.);
#215=ADVANCED_FACE('',(#61),#205,.T.);
#216=ADVANCED_FACE('',(#62,#54,#55),#206,.T.);
#217=ADVANCED_FACE('',(#63),#207,.T.);
#218=ADVANCED_FACE('',(#64),#208,.T.);
#219=ADVANCED_FACE('',(#65),#209,.F.);
#220=ADVANCED_FACE('',(#66,#56),#210,.T.);
#221=ADVANCED_FACE('',(#67),#49,.F.);
#222=ADVANCED_FACE('',(#68),#50,.F.);
#223=CLOSED_SHELL('',(#211,#212,#213,#214,#215,#216,#217,#218,#219,#220,
#221,#222));
#224=DERIVED_UNIT_ELEMENT(#226,1.);
#225=DERIVED_UNIT_ELEMENT(#395,3.);
#226=(
MASS_UNIT()
NAMED_UNIT(*)
SI_UNIT(.KILO.,.GRAM.)
);
#227=DERIVED_UNIT((#224,#225));
#228=MEASURE_REPRESENTATION_ITEM('density measure',
POSITIVE_RATIO_MEASURE(2700.),#227);
#229=PROPERTY_DEFINITION_REPRESENTATION(#234,#231);
#230=PROPERTY_DEFINITION_REPRESENTATION(#235,#232);
#231=REPRESENTATION('material name',(#233),#390);
#232=REPRESENTATION('density',(#228),#390);
#233=DESCRIPTIVE_REPRESENTATION_ITEM('Aluminum','Aluminum');
#234=PROPERTY_DEFINITION('material property','material name',#403);
#235=PROPERTY_DEFINITION('material property','density of part',#403);
#236=AXIS2_PLACEMENT_3D('placement',#327,#261,#262);
#237=AXIS2_PLACEMENT_3D('',#328,#263,#264);
#238=AXIS2_PLACEMENT_3D('',#331,#265,#266);
#239=AXIS2_PLACEMENT_3D('',#332,#267,#268);
#240=AXIS2_PLACEMENT_3D('',#334,#269,#270);
#241=AXIS2_PLACEMENT_3D('',#335,#271,#272);
#242=AXIS2_PLACEMENT_3D('',#338,#273,#274);
#243=AXIS2_PLACEMENT_3D('',#339,#275,#276);
#244=AXIS2_PLACEMENT_3D('',#341,#278,#279);
#245=AXIS2_PLACEMENT_3D('',#344,#281,#282);
#246=AXIS2_PLACEMENT_3D('',#345,#283,#284);
#247=AXIS2_PLACEMENT_3D('',#355,#289,#290);
#248=AXIS2_PLACEMENT_3D('',#356,#291,#292);
#249=AXIS2_PLACEMENT_3D('',#362,#296,#297);
#250=AXIS2_PLACEMENT_3D('',#370,#301,#302);
#251=AXIS2_PLACEMENT_3D('',#371,#303,#304);
#252=AXIS2_PLACEMENT_3D('',#372,#305,#306);
#253=AXIS2_PLACEMENT_3D('',#375,#309,#310);
#254=AXIS2_PLACEMENT_3D('',#376,#311,#312);
#255=AXIS2_PLACEMENT_3D('',#377,#313,#314);
#256=AXIS2_PLACEMENT_3D('',#380,#315,#316);
#257=AXIS2_PLACEMENT_3D('',#381,#317,#318);
#258=AXIS2_PLACEMENT_3D('',#383,#319,#320);
#259=AXIS2_PLACEMENT_3D('',#384,#321,#322);
#260=AXIS2_PLACEMENT_3D('',#386,#324,#325);
#261=DIRECTION('axis',(0.,0.,1.));
#262=DIRECTION('refdir',(1.,0.,0.));
#263=DIRECTION('center_axis',(0.,1.,0.));
#264=DIRECTION('ref_axis',(0.,0.,-1.));
#265=DIRECTION('center_axis',(0.,1.,0.));
#266=DIRECTION('ref_axis',(0.,0.,-1.));
#267=DIRECTION('center_axis',(0.,1.,0.));
#268=DIRECTION('ref_axis',(0.,0.,-1.));
#269=DIRECTION('center_axis',(0.,1.,0.));
#270=DIRECTION('ref_axis',(0.,0.,-1.));
#271=DIRECTION('center_axis',(0.,1.,0.));
#272=DIRECTION('ref_axis',(0.,0.,-1.));
#273=DIRECTION('center_axis',(0.,1.,0.));
#274=DIRECTION('ref_axis',(0.,0.,-1.));
#275=DIRECTION('center_axis',(0.,1.,0.));
#276=DIRECTION('ref_axis',(0.,0.,-1.));
#277=DIRECTION('',(0.,1.,0.));
#278=DIRECTION('center_axis',(0.,1.,0.));
#279=DIRECTION('ref_axis',(0.,0.,-1.));
#280=DIRECTION('',(0.,1.,0.));
#281=DIRECTION('center_axis',(0.,-1.,0.));
#282=DIRECTION('ref_axis',(0.,0.,-1.));
#283=DIRECTION('center_axis',(0.,1.,0.));
#284=DIRECTION('ref_axis',(-1.,0.,0.));
#285=DIRECTION('',(-1.,0.,0.));
#286=DIRECTION('',(0.,0.,1.));
#287=DIRECTION('',(-1.,0.,0.));
#288=DIRECTION('',(0.,0.,1.));
#289=DIRECTION('center_axis',(0.,1.,0.));
#290=DIRECTION('ref_axis',(0.,0.,-1.));
#291=DIRECTION('center_axis',(1.,0.,0.));
#292=DIRECTION('ref_axis',(0.,1.,0.));
#293=DIRECTION('',(0.,1.,0.));
#294=DIRECTION('',(0.,1.,0.));
#295=DIRECTION('',(0.,0.,1.));
#296=DIRECTION('center_axis',(0.,-1.,0.));
#297=DIRECTION('ref_axis',(1.,0.,0.));
#298=DIRECTION('',(1.,0.,0.));
#299=DIRECTION('',(1.,0.,0.));
#300=DIRECTION('',(0.,0.,1.));
#301=DIRECTION('center_axis',(0.,-1.,0.));
#302=DIRECTION('ref_axis',(0.,0.,-1.));
#303=DIRECTION('center_axis',(0.,-1.,0.));
#304=DIRECTION('ref_axis',(0.,0.,-1.));
#305=DIRECTION('center_axis',(-1.,1.29406316473263E-32,0.));
#306=DIRECTION('ref_axis',(-1.29406316473263E-32,-1.,0.));
#307=DIRECTION('',(-1.29406316473263E-32,-1.,0.));
#308=DIRECTION('',(-1.29406316473263E-32,-1.,0.));
#309=DIRECTION('center_axis',(0.,0.,1.));
#310=DIRECTION('ref_axis',(1.,0.,0.));
#311=DIRECTION('center_axis',(0.,0.,1.));
#312=DIRECTION('ref_axis',(1.,0.,0.));
#313=DIRECTION('center_axis',(0.,-1.,0.));
#314=DIRECTION('ref_axis',(0.,0.,-1.));
#315=DIRECTION('center_axis',(0.,-1.,0.));
#316=DIRECTION('ref_axis',(0.,0.,-1.));
#317=DIRECTION('center_axis',(0.,-1.,0.));
#318=DIRECTION('ref_axis',(0.,0.,-1.));
#319=DIRECTION('center_axis',(0.,-1.,0.));
#320=DIRECTION('ref_axis',(0.,0.,-1.));
#321=DIRECTION('center_axis',(0.,-1.,0.));
#322=DIRECTION('ref_axis',(0.,0.,-1.));
#323=DIRECTION('',(0.,1.,0.));
#324=DIRECTION('center_axis',(0.,-1.,0.));
#325=DIRECTION('ref_axis',(0.,0.,-1.));
#326=DIRECTION('',(0.,1.,0.));
#327=CARTESIAN_POINT('',(0.,0.,0.));
#328=CARTESIAN_POINT('Origin',(1.0625,0.5,0.94));
#329=CARTESIAN_POINT('',(1.0625,0.5,0.53375));
#330=CARTESIAN_POINT('',(1.0625,0.5,1.34625));
#331=CARTESIAN_POINT('Origin',(1.0625,0.5,0.94));
#332=CARTESIAN_POINT('Origin',(1.0625,0.5,0.94));
#333=CARTESIAN_POINT('',(1.0625,0.5,1.216));
#334=CARTESIAN_POINT('Origin',(1.0625,0.5,0.94));
#335=CARTESIAN_POINT('Origin',(1.0625,0.25,0.94));
#336=CARTESIAN_POINT('',(1.0625,0.,0.53375));
#337=CARTESIAN_POINT('',(1.0625,0.,1.34625));
#338=CARTESIAN_POINT('Origin',(1.0625,0.,0.94));
#339=CARTESIAN_POINT('Origin',(1.0625,0.,0.94));
#340=CARTESIAN_POINT('',(1.0625,0.25,1.34625));
#341=CARTESIAN_POINT('Origin',(1.0625,1.1,0.94));
#342=CARTESIAN_POINT('',(1.0625,0.75,1.216));
#343=CARTESIAN_POINT('',(1.0625,1.1,1.216));
#344=CARTESIAN_POINT('Origin',(1.0625,0.75,0.94));
#345=CARTESIAN_POINT('Origin',(6.,0.75,0.));
#346=CARTESIAN_POINT('',(6.,0.75,0.));
#347=CARTESIAN_POINT('',(9.70547373549473E-33,0.75,0.));
#348=CARTESIAN_POINT('',(6.,0.75,0.));
#349=CARTESIAN_POINT('',(9.70547373549473E-33,0.75,2.));
#350=CARTESIAN_POINT('',(9.70547373549473E-33,0.75,0.));
#351=CARTESIAN_POINT('',(6.,0.75,2.));
#352=CARTESIAN_POINT('',(6.,0.75,2.));
#353=CARTESIAN_POINT('',(6.,0.75,0.));
#354=CARTESIAN_POINT('',(4.9375,0.75,1.216));
#355=CARTESIAN_POINT('Origin',(4.9375,0.75,0.94));
#356=CARTESIAN_POINT('Origin',(6.,0.,0.));
#357=CARTESIAN_POINT('',(6.,0.,0.));
#358=CARTESIAN_POINT('',(6.,0.,0.));
#359=CARTESIAN_POINT('',(6.,0.,2.));
#360=CARTESIAN_POINT('',(6.,0.,2.));
#361=CARTESIAN_POINT('',(6.,0.,0.));
#362=CARTESIAN_POINT('Origin',(1.0775240406041E-48,0.,0.));
#363=CARTESIAN_POINT('',(1.0775240406041E-48,0.,0.));
#364=CARTESIAN_POINT('',(0.,0.,0.));
#365=CARTESIAN_POINT('',(1.0775240406041E-48,0.,2.));
#366=CARTESIAN_POINT('',(0.,0.,2.));
#367=CARTESIAN_POINT('',(1.0775240406041E-48,0.,0.));
#368=CARTESIAN_POINT('',(4.9375,0.,0.53375));
#369=CARTESIAN_POINT('',(4.9375,0.,1.34625));
#370=CARTESIAN_POINT('Origin',(4.9375,0.,0.94));
#371=CARTESIAN_POINT('Origin',(4.9375,0.,0.94));
#372=CARTESIAN_POINT('Origin',(9.70547373549473E-33,0.75,0.));
#373=CARTESIAN_POINT('',(9.70547373549473E-33,0.75,0.));
#374=CARTESIAN_POINT('',(9.70547373549473E-33,0.75,2.));
#375=CARTESIAN_POINT('Origin',(3.,0.375,2.));
#376=CARTESIAN_POINT('Origin',(3.,0.375,0.));
#377=CARTESIAN_POINT('Origin',(4.9375,0.5,0.94));
#378=CARTESIAN_POINT('',(4.9375,0.5,0.53375));
#379=CARTESIAN_POINT('',(4.9375,0.5,1.34625));
#380=CARTESIAN_POINT('Origin',(4.9375,0.5,0.94));
#381=CARTESIAN_POINT('Origin',(4.9375,0.5,0.94));
#382=CARTESIAN_POINT('',(4.9375,0.5,1.216));
#383=CARTESIAN_POINT('Origin',(4.9375,0.5,0.94));
#384=CARTESIAN_POINT('Origin',(4.9375,0.25,0.94));
#385=CARTESIAN_POINT('',(4.9375,0.25,1.34625));
#386=CARTESIAN_POINT('Origin',(4.9375,1.1,0.94));
#387=CARTESIAN_POINT('',(4.9375,1.1,1.216));
#388=UNCERTAINTY_MEASURE_WITH_UNIT(LENGTH_MEASURE(0.000393700787401575),
#393,'DISTANCE_ACCURACY_VALUE',
'Maximum model space distance between geometric entities at asserted c
onnectivities');
#389=UNCERTAINTY_MEASURE_WITH_UNIT(LENGTH_MEASURE(0.000393700787401575),
#393,'DISTANCE_ACCURACY_VALUE',
'Maximum model space distance between geometric entities at asserted c
onnectivities');
#390=(
GEOMETRIC_REPRESENTATION_CONTEXT(3)
GLOBAL_UNCERTAINTY_ASSIGNED_CONTEXT((#388))
GLOBAL_UNIT_ASSIGNED_CONTEXT((#393,#397,#398))
REPRESENTATION_CONTEXT('','3D')
);
#391=(
GEOMETRIC_REPRESENTATION_CONTEXT(3)
GLOBAL_UNCERTAINTY_ASSIGNED_CONTEXT((#389))
GLOBAL_UNIT_ASSIGNED_CONTEXT((#393,#397,#398))
REPRESENTATION_CONTEXT('','3D')
);
#392=DIMENSIONAL_EXPONENTS(1.,0.,0.,0.,0.,0.,0.);
#393=(
CONVERSION_BASED_UNIT('inch',#396)
LENGTH_UNIT()
NAMED_UNIT(#392)
);
#394=(
LENGTH_UNIT()
NAMED_UNIT(*)
SI_UNIT(.MILLI.,.METRE.)
);
#395=(
LENGTH_UNIT()
NAMED_UNIT(*)
SI_UNIT($,.METRE.)
);
#396=LENGTH_MEASURE_WITH_UNIT(LENGTH_MEASURE(25.4),#394);
#397=(
NAMED_UNIT(*)
PLANE_ANGLE_UNIT()
SI_UNIT($,.RADIAN.)
);
#398=(
NAMED_UNIT(*)
SI_UNIT($,.STERADIAN.)
SOLID_ANGLE_UNIT()
);
#399=SHAPE_DEFINITION_REPRESENTATION(#400,#401);
#400=PRODUCT_DEFINITION_SHAPE('',$,#403);
#401=SHAPE_REPRESENTATION('',(#236),#390);
#402=PRODUCT_DEFINITION_CONTEXT('part definition',#407,'design');
#403=PRODUCT_DEFINITION('Angle Setting Vise Jaws - Steel 6"',
'Angle Setting Vise Jaws - Steel 6" v21',#404,#402);
#404=PRODUCT_DEFINITION_FORMATION('',$,#409);
#405=PRODUCT_RELATED_PRODUCT_CATEGORY(
'Angle Setting Vise Jaws - Steel 6" v21',
'Angle Setting Vise Jaws - Steel 6" v21',(#409));
#406=APPLICATION_PROTOCOL_DEFINITION('international standard',
'automotive_design',2009,#407);
#407=APPLICATION_CONTEXT(
'Core Data for Automotive Mechanical Design Process');
#408=PRODUCT_CONTEXT('part definition',#407,'mechanical');
#409=PRODUCT('Angle Setting Vise Jaws - Steel 6"',
'Angle Setting Vise Jaws - Steel 6" v21',$,(#408));
#410=PRESENTATION_STYLE_ASSIGNMENT((#411));
#411=SURFACE_STYLE_USAGE(.BOTH.,#412);
#412=SURFACE_SIDE_STYLE('',(#413));
#413=SURFACE_STYLE_FILL_AREA(#414);
#414=FILL_AREA_STYLE('Aluminum - Satin',(#415));
#415=FILL_AREA_STYLE_COLOUR('Aluminum - Satin',#416);
#416=COLOUR_RGB('Aluminum - Satin',0.96078431372549,0.96078431372549,0.964705882352941);
ENDSEC;
END-ISO-10303-21;
